Dil Kya Kare (Julie) guitar tabs lead lyrics


E|-4--6-----4--6--4--7--4--7--7---4--6-----6--6--------|
B|------4-----------------------6-------7--------------|
G|-----------------------------------------------------|
 
E|-------6-----------------------------4-4----------4-4|
B|----7-----7-9-7-9-7-9-7-9----4-4--7-------4-4--7-----|
G|-8---------------------------------------------------|
 
 
 
E|---------6--7----6------6--9----6--9-6-------7--6----|
B|-----9---------------9------------------9----------9-|
G|-8---------------------------------------------------|
   Dil Kya Karey,  Jab Kisi  se,  Kisi ko Pyar Ho Jaye 
 
E|--------6--7----6------6--9----6-9-6-------7--6------|
B|-----9---------------9----------------9----------9---|
G|-8---------------------------------------------------|
   Jaane  Kahan,  Kab  Kisiko,   Kisise Pyar Ho Jaye 
 
 
E|-11----11--11-9--11-11--9--11-11-9-------------------|
B|--------------------------------------9-9------------|
G|-----------------------------------------------------|
   ho..   Oonchi    Oonchi   Deewaron   Si 
 
E|---------9-9--11--9---7---7--------------------------|
B|----9-9----------------------------------------------|
G|-----------------------------------------------------|
      Iss  Duniya   Ki  Rasmein 
 
E|--11--11-9--11-11--9--11-11--9-----------------------|
B|------------------------------------9--9-------------|
G|-----------------------------------------------------|
     Na Kuch  Tere      Bas    Mein   Julie 
 
E|---------9-9---11--9---7---7-------------------------|
B|----9-9-----------------------------------7--9-------|
G|-----------------------------------------------------|
      Na   Kuch  Mere   Bas  Mein 
 
The music in between
 
E|--------13-13----13-11----13-13--------11-11---11-9----11-11--|
B|--11-13-------11-------13---------9-11-------9------11--------|
G|--------------------------------------------------------------|
 
E|--------13-13----13-11----13-13--------11-11---11-9----11-11--|
B|--11-13-------11-------13---------9-11-------9------11--------|
G|--------------------------------------------------------------|
 
Better if played at a higher pitch...
E|---6--4--7--6--4--4--6----------6-4-6-4------4----------------|
B|-4---------------------------4----------6--6------------------|
G|--------------------------------------------------------------|
 
E|---6--4--7--9--6--4-------------6-4-6-4------4----------------|
B|-4---------------------------4----------6--6------------------|
G|--------------------------------------------------------------|
 
 
 
 
E|----------9-9-------------------9-9------------------|
B|---9-9-9------11--9------9-9-9-------11-9------------|
G|-----------------------------------------------------|
     Jaise  Parbat  Pe     Ghata Jhukti Hai 
 
E|----------9-9--------------------9--9----------------|
B|---9-9-9------11--9------9-9-9---------11-9----------|
G|-----------------------------------------------------|
     Jaise  Saagar  Mein   Lehar   Uthti  Hai 
 
E|---11-9--11-9--11-9------------9---------------------|
B|--------------------11--9----9-------11-9-11-7-9-----|
G|-----------------------------------------------------|
      Aise Kisi Chehre    Pe,  Nigaah  Rukti   Hai 
 
 
 
E|-11----11--11-9--11-11--9--11-11-9-------------------|
B|------------------------------------9-9--------------|
G|-----------------------------------------------------|
   Ho..  Rok Nahin Sakti     Nazron  Ko 
 
 
E|---------9-9--11--9---7---7--------------------------|
B|----9-9----------------------------------------------|
G|-----------------------------------------------------|
      Duniya Bhar  Ki Rasmein 
 
 
 
E|--11--11-9--11-11--9--11-11--9-----------------------|
B|------------------------------------9--9-------------|
G|-----------------------------------------------------|
     Na Kuch  Tere      Bas    Mein   Julie 
 
E|---------9-9---11--9---7---7-------------------------|
B|----9-9-----------------------------------7--9-------|
G|-----------------------------------------------------|
      Na   Kuch  Mere   Bas  Mein 
 
 
E|---------6--7----6------6--9----6--9-6-------7--6----|
B|-----9---------------9------------------9----------9-|
G|-8---------------------------------------------------|
   Dil Kya Karey,  Jab Kisi  se,  Kisi ko Pyar Ho Jaye 
 
E|--------6--7----6------6--9----6-9-6-------7--6------|
B|-----9---------------9----------------9----------9---|
G|-8---------------------------------------------------|
   Jaane  Kahan,  Kab  Kisiko,   Kisise Pyar Ho Jaye 
 
 
Aa Maein Teri Yaad Mein Sab Ko Bhuladoon 
Duniya Ko Teri Tasveer Banadoon 
Mera Bas Chale To Dil Cheer Ke Dikhadoon 
Daud Raha Hai Saath Lahu Ke Pyar Tera Nas Nas Mein 
Na Kuch Tere Bas Mein Julie Na Kuch Mere Bas Mein 
Dil Kya Karey Jab Kisise Kisiko Pyar Ho Jaye

No comments:

Post a Comment