Pyar Humko Bhi Hai Pyaar tumko Bhi Hai (chalte chalte) guitar tabs lead lyrics


Song     : Pyar Hum ko Bhi Hai Pyar Tum Ko Bhi Hai
Film     : Chalte Chalte
Tabbed By: Ali Rana
Comments : cagedinsanity@hotmail.com (please do comment on this in the guest book
                                      or at least email me .. this is the best i
                                      have done so far . :@ )
 
B----------------------------------------------------------------------------
G------------------------------4--4-4----------------4--5--7--5--------------
D---5-4-5--7--7-7-------5-4-5------------------5-4-5-------------7--5--------
 Pyar humko bhi hai    Pyar tumko bhi hai    Tou yeh kya silsalay ho gaeyy
 
 
 
B----------------------------------------------------------------------------
G------------------------------4--4-4----------------4--5--7--5--------------
D---5-4-5--7--7-7-------5-4-5------------------5-4-5-------------7--5--------
 Bewafa hum nahi       Bewafa tum nahi       Tou kuon itnay gilay ho gaey
 
 
 
B--------3-------3-----------------------------------------------------------
G-----4------------4--5-------4-4--5--7---5--4-------------------------------
D--5--------------------------------------------7---5-5----------------------
 Chalteyyy     chaltey       kaisay yeh fasslay ho gaey
 
 
 
B---------------------------------------------------------------------------
G-------------------------------7~---5--------------------------------------
D---5--4-5-77-----4-5-77----5----------7-------5-4-5~~~---------------------
    hmmmmmhmmm    hmmmmmm   hmm hooooooo       kya pataaa
 
 
B--------------------------------------------------------------------------
G--------------7--5--------------------------------------------------------
D----4-4h5-----------7-----5-----------------------------------------------
    kahaan    hum chalaayyy

No comments:

Post a Comment